It is currently Mon Dec 10, 2018 5:16 pm


All times are UTC - 8 hours




Post new topic Reply to topic  [ 33 posts ]  Go to page Previous  1, 2, 3, 4  Next
Author Message
PostPosted: Fri Jul 26, 2013 6:10 pm 

Joined: Fri Feb 15, 2013 1:36 pm
Posts: 17
Awesome, thanks a lot @destinatonblues
@kmeis002 that's pretty much what I got for "bed of nails" too, though where you have A- I got Fmaj7
And for the A I hear A7
(I need to listen again to be sure,but I think) instead of F# I got Gbadd11 or if you add the open high E string you get a wacky chord symbol Gbadd11b7
Voicing it like this on the guitar:

E-0
B-0
G-3
D-4
A-4
E-2

I'd love to see what you got for some fills, particularly the one that Emil starts the tune with. I've got something that works for that but I'm not happy with it, I will take another listen and loop that part.

Here are the chords to "payoff" from the same radio interview. When I get some time I will put up some fills for this one too and the chords for "golden tomb".

F#-
Spent my time and too much
E
Stress

Dsus
Lookin' for the payoff.


Top
 Profile  
Reply with quote  
PostPosted: Sat Jul 27, 2013 4:17 pm 

Joined: Mon Jun 03, 2013 2:27 pm
Posts: 15
Here's some of the fills I use, probably much like yours, working but not precise.

intro fill
E---------------0----0-0h1p0------------
B--3---3---3-3-4--4----------4---4----4
G-----------------------------0--------0
D--3---3---3-3-4-------------4---4----4
A--2-2---2------------------------------
E-------------------2---------2/3----3/2

It really diverges at the end. I pretty much do something similar for the middle fill.

Really looking forward to golden tomb, one of my favorites.
I'm down with those changes.

I got most of Rebel of Vicarious Life roughly mapped, once I get that I'll post it.


Top
 Profile  
Reply with quote  
PostPosted: Sat Jul 27, 2013 7:35 pm 

Joined: Fri Feb 15, 2013 1:36 pm
Posts: 17
"Golden Tomb"



=F#-==================G#-======'======
E----------------------------------------p----h---------
B-2---2-2--2-4-5-4-2-------4---4-4--7-4--4-5-----5-
G-2---2-2--------------------4---4-4------6-----------
D-4---4-4--------------------6---6-6-------------4----
A-4---4-4--------------------6---6-6-------------------
E-2---2-2--------------------4---4-4-------------------


G#-
People have confused me from time to time
C#- 3rd in bass
By seeing things in things that I do not see in
G#-
Those things
It's happened over the
C#- 3rd in bass
Years, many times before
(continue same progression)

But I,

Amaj7
Know there must be things that are just true, but
E
No one agrees about those things
Amaj7
I know there must be things that
E
No one knows are true but I do

F#-
But why can't there be just one golden tomb?
G#-
Why can't there be? I know, there would

(instrumental)
F#-===========G#-========

(continue with same progression from first verse)

Amaj7
I know there is things that are
E
True, some people know

(Amaj7 E continues until end of song)


Last edited by no.divisions on Sat Jul 27, 2013 8:32 pm, edited 4 times in total.

Top
 Profile  
Reply with quote  
PostPosted: Sat Jul 27, 2013 7:42 pm 

Joined: Fri Feb 15, 2013 1:36 pm
Posts: 17


Top
 Profile  
Reply with quote  
PostPosted: Sat Jul 27, 2013 8:06 pm 

Joined: Fri Feb 15, 2013 1:36 pm
Posts: 17
"Family Man"



Intro, let ring out
E------------0-------2----------------------0-------2----
B----------------------------------------------------------
G----------------0------------------------------0---------
D------4/5---------------------------4/5-----------------
A----------------------------------------------------------
E----------------------------------------------------------

This is the pattern and chord progression for the verse
E-------------------------------------------------------------------------------------------------------------
B------------4--------------4----------------5-------------5---------------5---------------5-------------5-
G------------4--------------4----------------4-------------4---------------4---------------4-------------4
D--------4---------------4----------------5-------------5---------------5---------------5-------------5----
A----2-----------2--2-------------2---3----------3--3-----------3--4------------4--4---------4---3--------
E-------------------------------------------------------------------------------------------------------------

E--------------------
B---------------5---
G---------------4---
D-----------5--------
A---3---3------------
E---------------------

B Cmaj7 C#-7b5 Cmaj7

That C#-7b5 is also enharmonically A9 no root.

Synth/whatever part

===C==Dsus======A-=B5
E----------------------------
B---1---3-----------1-------
G---0---2-----------2---4---
D---2---0-----------2---4---
A---3-------3---2---0---2---
E-----------------------------

You can also use D and B instead of Dsus and B5.


Top
 Profile  
Reply with quote  
PostPosted: Sat Aug 17, 2013 5:27 pm 

Joined: Mon Jun 03, 2013 2:27 pm
Posts: 15


Top
 Profile  
Reply with quote  
PostPosted: Thu Aug 22, 2013 5:11 pm 

Joined: Fri Feb 15, 2013 1:36 pm
Posts: 17
"The Fact Facer" from "My Only Warm Coals"

I transcribed this from the studio version which is very bass driven, often pedaling away on one note, though it does imply changes. For example; as soon as the tune kicks off it has the bass doing an ostinato on a C note. The song is in Eb, so that C pedal could be lots of things; C5 or C- or C-9 ect.


C pedal
I'm doubling time and spilling my glass, like so many safe ways I'm traveling past
Eb pedal
I don't need to rest
C pedal
I'd been with the worst, I've seen it before, I'm like Toshiro Mifune I'm always the sword
Eb pedal
I can't stand to sleep

Ab
Smoking dope or
Bb
whatever I do
G-
The police wont find me if I'd
Ab
Stay with you

Bb
A humiliation, in middle of the
Ab G- Ab
Highway

Bb
Humiliation, is kinda my
Ab G- Ab
Thing

I'm on,
Ab
various drugs, I need
Bb
Crowd control, no
G-
I wouldn't know if I had
Ab
Sold my soul

so many years ago, so many years ago

(the distorted guitar at the end plays these roots or play them as 5ths)
F G Ab Bb


Top
 Profile  
Reply with quote  
PostPosted: Fri Sep 20, 2013 11:14 am 

Joined: Tue Sep 03, 2013 12:04 pm
Posts: 1
Thank you all for sharing!!! Glad I finally found somewhere to get this.
Does anybody know chords to Wait Stop Plex, Wounded Son, or The Beach

It would be ridiculous trying to tab Earthly Sick but if someone did, they'd be a badass


Top
 Profile  
Reply with quote  
PostPosted: Tue Oct 14, 2014 4:29 am 

Joined: Mon Jun 03, 2013 2:27 pm
Posts: 15


Top
 Profile  
Reply with quote  
PostPosted: Sat Jan 24, 2015 3:00 pm 

Joined: Tue Jun 28, 2011 9:32 am
Posts: 43
More acoustic Holy Sons tracks available .

_________________






Top
 Profile  
Reply with quote  
Display posts from previous:  Sort by  
Post new topic Reply to topic  [ 33 posts ]  Go to page Previous  1, 2, 3, 4  Next

All times are UTC - 8 hours


You cannot post new topics in this forum
You cannot reply to topics in this forum
You cannot edit your posts in this forum
You cannot delete your posts in this forum
You cannot post attachments in this forum

Search for:
Jump to:  
cron
Powered by phpBB® Forum Software © phpBB Group

[ Time : 0.013s | 10 Queries | GZIP : Off ]