It is currently Mon Oct 23, 2017 12:26 pm


All times are UTC - 8 hours




Post new topic Reply to topic  [ 33 posts ]  Go to page Previous  1, 2, 3, 4  Next
Author Message
PostPosted: Fri Jul 26, 2013 6:10 pm 

Joined: Fri Feb 15, 2013 1:36 pm
Posts: 17
Awesome, thanks a lot @destinatonblues
@kmeis002 that's pretty much what I got for "bed of nails" too, though where you have A- I got Fmaj7
And for the A I hear A7
(I need to listen again to be sure,but I think) instead of F# I got Gbadd11 or if you add the open high E string you get a wacky chord symbol Gbadd11b7
Voicing it like this on the guitar:

E-0
B-0
G-3
D-4
A-4
E-2

I'd love to see what you got for some fills, particularly the one that Emil starts the tune with. I've got something that works for that but I'm not happy with it, I will take another listen and loop that part.

Here are the chords to "payoff" from the same radio interview. When I get some time I will put up some fills for this one too and the chords for "golden tomb".

F#-
Spent my time and too much
E
Stress

Dsus
Lookin' for the payoff.


Top
 Profile  
Reply with quote  
PostPosted: Sat Jul 27, 2013 4:17 pm 

Joined: Mon Jun 03, 2013 2:27 pm
Posts: 15
Here's some of the fills I use, probably much like yours, working but not precise.

intro fill
E---------------0----0-0h1p0------------
B--3---3---3-3-4--4----------4---4----4
G-----------------------------0--------0
D--3---3---3-3-4-------------4---4----4
A--2-2---2------------------------------
E-------------------2---------2/3----3/2

It really diverges at the end. I pretty much do something similar for the middle fill.

Really looking forward to golden tomb, one of my favorites.
I'm down with those changes.

I got most of Rebel of Vicarious Life roughly mapped, once I get that I'll post it.


Top
 Profile  
Reply with quote  
PostPosted: Sat Jul 27, 2013 7:35 pm 

Joined: Fri Feb 15, 2013 1:36 pm
Posts: 17
"Golden Tomb"



=F#-==================G#-======'======
E----------------------------------------p----h---------
B-2---2-2--2-4-5-4-2-------4---4-4--7-4--4-5-----5-
G-2---2-2--------------------4---4-4------6-----------
D-4---4-4--------------------6---6-6-------------4----
A-4---4-4--------------------6---6-6-------------------
E-2---2-2--------------------4---4-4-------------------


G#-
People have confused me from time to time
C#- 3rd in bass
By seeing things in things that I do not see in
G#-
Those things
It's happened over the
C#- 3rd in bass
Years, many times before
(continue same progression)

But I,

Amaj7
Know there must be things that are just true, but
E
No one agrees about those things
Amaj7
I know there must be things that
E
No one knows are true but I do

F#-
But why can't there be just one golden tomb?
G#-
Why can't there be? I know, there would

(instrumental)
F#-===========G#-========

(continue with same progression from first verse)

Amaj7
I know there is things that are
E
True, some people know

(Amaj7 E continues until end of song)


Last edited by no.divisions on Sat Jul 27, 2013 8:32 pm, edited 4 times in total.

Top
 Profile  
Reply with quote  
PostPosted: Sat Jul 27, 2013 7:42 pm 

Joined: Fri Feb 15, 2013 1:36 pm
Posts: 17
kmeis002 wrote:
Here's some of the fills I use, probably much like yours, working but not precise.

intro fill
E---------------0----0-0h1p0------------
B--3---3---3-3-4--4----------4---4----4
G-----------------------------0--------0
D--3---3---3-3-4-------------4---4----4
A--2-2---2------------------------------
E-------------------2---------2/3----3/2

It really diverges at the end. I pretty much do something similar for the middle fill.

Really looking forward to golden tomb, one of my favorites.
I'm down with those changes.

I got most of Rebel of Vicarious Life roughly mapped, once I get that I'll post it.



Right on, "rebel of vicarious life" is one of my favorites.

Here's the arpeggio at the end of that fill.

E---------0-------------------
B-------------4---------------
G-----------------0-----------
D---------------------4-------
A-----0-----------------------
E------------------------------


Top
 Profile  
Reply with quote  
PostPosted: Sat Jul 27, 2013 8:06 pm 

Joined: Fri Feb 15, 2013 1:36 pm
Posts: 17
"Family Man"



Intro, let ring out
E------------0-------2----------------------0-------2----
B----------------------------------------------------------
G----------------0------------------------------0---------
D------4/5---------------------------4/5-----------------
A----------------------------------------------------------
E----------------------------------------------------------

This is the pattern and chord progression for the verse
E-------------------------------------------------------------------------------------------------------------
B------------4--------------4----------------5-------------5---------------5---------------5-------------5-
G------------4--------------4----------------4-------------4---------------4---------------4-------------4
D--------4---------------4----------------5-------------5---------------5---------------5-------------5----
A----2-----------2--2-------------2---3----------3--3-----------3--4------------4--4---------4---3--------
E-------------------------------------------------------------------------------------------------------------

E--------------------
B---------------5---
G---------------4---
D-----------5--------
A---3---3------------
E---------------------

B Cmaj7 C#-7b5 Cmaj7

That C#-7b5 is also enharmonically A9 no root.

Synth/whatever part

===C==Dsus======A-=B5
E----------------------------
B---1---3-----------1-------
G---0---2-----------2---4---
D---2---0-----------2---4---
A---3-------3---2---0---2---
E-----------------------------

You can also use D and B instead of Dsus and B5.


Top
 Profile  
Reply with quote  
PostPosted: Sat Aug 17, 2013 5:27 pm 

Joined: Mon Jun 03, 2013 2:27 pm
Posts: 15
Rebel of Vicarious Life
Code:
Real rough working version sans intro, starting at:

Fill
E--------------------------------------
B----------------------8---6-----------
G--9-9----9--9----9-----------9--------
D--------------------------------------
A------10-----------10-----------10s8-
E--------------------------------------

A# with fill ( I generally just strum and throw in the fill as needed. This goes on through this whole part)
Some people might think that you might need a reason to be confused


Sometimes I think...that if I ever did anything, especially some horrible deed that I wouldn't


want to do it for any reason especially.

In fact that reason would dilute the act and make it almost laughable or petty, I mean seriously.

I'd rather think that something important was developing through me and I didn't really understand what the ends of those means would be.

A#                                    B#m           
See I've been a rebel regarding
           D#          A# fill
what is vicarious life.
 
A#                      B#m   D#7
I've got to get the quick conduct

G5 barred at three, then move to Gb in the bass and back
tonight.                 and discard all habitual needs

A#                                              G5
I love everything I know that's not easy to say

A#                                                                                    B#m   D#       
I love everything and sometimes I'm wondering if its not something you all wanna hear.

A#  D#7  G5

A#  D#7  G5

G5
Regardless... I'm gonna believe

B#m
Tomorrow 
Gm
I'm gonna believe
B#m
Tomorrow 
D#                       F    A#   Gm
Share the Light

B#m
Tomorrow 
D#              Gm
Again


A#                                    B#m           
See I've been a rebel regarding
           D#          A# fill
what is vicarious life.


Sure as hell aint perfect so feel free to make any changes.

And a quickie

Underdog Cringe
Code:
Tuning - Drop D (DADGBE)


E----------------
B----------------
G----------------
D--2---2----2---2
A----2--------2--
D-2-------2-------
Repeat as needed then, sometimes bending the bass E note.

E----------------
B----------------
G----------------
D--2---2----2---2
A----0--------0--
D-2-------2-------

E----------------
B----------------
G----------------
D--2---2----2---2
A----0--------0--
D-0-------0-------



EDIT:

The track I'm most likely to sing in the shower

Chemical Fire

Code:
Fills in between verses
E---------------------------------------------------------------------------
B---------------------------------------------------------------------------
G---------------------------------------------------------------------------
D------------------------------------------3-------------------------------
A---5--3--1--------5-3-1-----3--5--3--5-----5----3------3b5--5--3---1----
E-3---------3---3--------3-----------------------------------------------3--



F5/G5  (PM) G5

G5
Wanna come out of the days when my mind was a chemical fire
F5
And I spread the shards of a thousand wires
G5
Looking every night for that ritual draw every omen
F5                                    G5
and every curse was unknowingly my fault

FILL

G5
One can sit satisfied and dig that same old hole,,
                     F5                       G5
Inebriated with self concern and no self control,,
G5
It's up to you to decide if that pain is real,,
                     F5                          G5
and stop the temptation to narrate how you feel...

FILL
G                                                        F                 G
I don't get the feeling that you care about yourself or getting anywhere,,
G
I am moving on with things to do,,
F                                                        G
The things that matter to me just don't matter to you,,
F                                                   G
You never taught me the things you said you would,,
                   F                              G
I need to know more about this world that's good,,
                                 F                 G
You never taught me the things you said you would...

[code]

I replace G5/F5 with Gmin/F respectively sometimes.




Top
 Profile  
Reply with quote  
PostPosted: Thu Aug 22, 2013 5:11 pm 

Joined: Fri Feb 15, 2013 1:36 pm
Posts: 17
"The Fact Facer" from "My Only Warm Coals"

I transcribed this from the studio version which is very bass driven, often pedaling away on one note, though it does imply changes. For example; as soon as the tune kicks off it has the bass doing an ostinato on a C note. The song is in Eb, so that C pedal could be lots of things; C5 or C- or C-9 ect.


C pedal
I'm doubling time and spilling my glass, like so many safe ways I'm traveling past
Eb pedal
I don't need to rest
C pedal
I'd been with the worst, I've seen it before, I'm like Toshiro Mifune I'm always the sword
Eb pedal
I can't stand to sleep

Ab
Smoking dope or
Bb
whatever I do
G-
The police wont find me if I'd
Ab
Stay with you

Bb
A humiliation, in middle of the
Ab G- Ab
Highway

Bb
Humiliation, is kinda my
Ab G- Ab
Thing

I'm on,
Ab
various drugs, I need
Bb
Crowd control, no
G-
I wouldn't know if I had
Ab
Sold my soul

so many years ago, so many years ago

(the distorted guitar at the end plays these roots or play them as 5ths)
F G Ab Bb


Top
 Profile  
Reply with quote  
PostPosted: Fri Sep 20, 2013 11:14 am 

Joined: Tue Sep 03, 2013 12:04 pm
Posts: 1
Thank you all for sharing!!! Glad I finally found somewhere to get this.
Does anybody know chords to Wait Stop Plex, Wounded Son, or The Beach

It would be ridiculous trying to tab Earthly Sick but if someone did, they'd be a badass


Top
 Profile  
Reply with quote  
PostPosted: Tue Oct 14, 2014 4:29 am 

Joined: Mon Jun 03, 2013 2:27 pm
Posts: 15
Code:
No Self Respect:

Intro (fills are pretty easy to figure out)
A  C  F

  A                               
I don't have no self respect,

  C                        F
I dont have no self respect,

  A                               
I don't have no self respect,

  C                        F
I dont have no self respect,

  A                                                C          F   
Some people try to get me to cut my hair

  A                                              C           F   
I cannot bother with what I wear

  A                                                C          F   
Some people make me feel so bad

  A                                                C          F   
I guess I'll never be just what I am, but I am

A   C   F

G                                               F
I'm a strange one (strange one),
                                                  A
Guess it just they way it has to be that way

G                                               F
I'm a strange one (strange one),
                                                  A
Guess it just they way it has to be that way

  A                               
I don't have no self respect,

  C                        F
I dont have no self respect,


Code:
Wax gets in your eyes (acoustic)

Intro:

--------------------------------------------------------------
--------------------------------------------------------------
--------------------------------------------------------------
-----4-4-2--2------8-8--6--6-----4--4h5--5--4h5--6---5-
---2-------2------6--------6-----5--------5-----------------
-0----0---------4-------4------3----3--------3------3--3---

E5                                        G#5
You seem to think you have a hold on me
G5                                  C
You seem to think you're using me

Am7                                           (Walk C to Am7)   
You'll never know, oh you'll never know                       x3


E5                                        G#5
Inefficient eyes that blink and miss sunsets
G5                                      C
Wax gets in your eyes when mannequins get upset
E5                                        G#5
Blood drips from the ozone and some orange trees too
G5                                      C
Machiavelli sang "whats good for you?"


Am7                                           (Walk C to Am7)   
You'll never know, oh you'll never know                       x3

Am7/F                Em                                         Am7       
Right when the world pins me down and says its won
Am7/F                Em                                         Am7       
Right when they count me out and say its all done          x2


Top
 Profile  
Reply with quote  
PostPosted: Sat Jan 24, 2015 3:00 pm 

Joined: Tue Jun 28, 2011 9:32 am
Posts: 43
More acoustic Holy Sons tracks available here.

_________________
Grails, Om, Holy Sons, Watter, L&C Discography List
Grails Etc Gigography & Live Show Downloads
Grails Etc Interviews
Holy Sons Acoustic & Bsides Downloads
Mixtapes


Top
 Profile  
Reply with quote  
Display posts from previous:  Sort by  
Post new topic Reply to topic  [ 33 posts ]  Go to page Previous  1, 2, 3, 4  Next

All times are UTC - 8 hours


You cannot post new topics in this forum
You cannot reply to topics in this forum
You cannot edit your posts in this forum
You cannot delete your posts in this forum
You cannot post attachments in this forum

Search for:
Jump to:  
cron
Powered by phpBB® Forum Software © phpBB Group